Leaderboard

0
New
210
Logged
5
Anglers

2018 Southern Oregon Kayak Fishing AOY
Leaderboard - Catch Summary

Based on Number of Fish Caught.


All 366 Days 04/22/2018 04/23/2018 04/24/2018 04/25/2018 04/26/2018 04/27/2018 04/28/2018 04/29/2018 04/30/2018 05/01/2018 05/02/2018 05/03/2018 05/04/2018 05/05/2018 05/06/2018 05/07/2018 05/08/2018 05/09/2018 05/10/2018 05/11/2018 05/12/2018 05/13/2018 05/14/2018 05/15/2018 05/16/2018 05/17/2018 05/18/2018 05/19/2018 05/20/2018 05/21/2018 05/22/2018 05/23/2018 05/24/2018 05/25/2018 05/26/2018 05/27/2018 05/28/2018 05/29/2018 05/30/2018 05/31/2018 06/01/2018 06/02/2018 06/03/2018 06/04/2018 06/05/2018 06/06/2018 06/07/2018 06/08/2018 06/09/2018 06/10/2018 06/11/2018 06/12/2018 06/13/2018 06/14/2018 06/15/2018 06/16/2018 06/17/2018 06/18/2018 06/19/2018 06/20/2018 06/21/2018 06/22/2018 06/23/2018 06/24/2018 06/25/2018 06/26/2018 06/27/2018 06/28/2018 06/29/2018 06/30/2018 07/01/2018 07/02/2018 07/03/2018 07/04/2018 07/05/2018 07/06/2018 07/07/2018 07/08/2018 07/09/2018 07/10/2018 07/11/2018 07/12/2018 07/13/2018 07/14/2018 07/15/2018 07/16/2018 07/17/2018 07/18/2018 07/19/2018 07/20/2018 07/21/2018 07/22/2018 07/23/2018 07/24/2018 07/25/2018 07/26/2018 07/27/2018 07/28/2018 07/29/2018 07/30/2018 07/31/2018 08/01/2018 08/02/2018 08/03/2018 08/04/2018 08/05/2018 08/06/2018 08/07/2018 08/08/2018 08/09/2018 08/10/2018 08/11/2018 08/12/2018 08/13/2018 08/14/2018 08/15/2018 08/16/2018 08/17/2018 08/18/2018 08/19/2018 08/20/2018 08/21/2018 08/22/2018 08/23/2018 08/24/2018 08/25/2018 08/26/2018 08/27/2018 08/28/2018 08/29/2018 08/30/2018 08/31/2018 09/01/2018 09/02/2018 09/03/2018 09/04/2018 09/05/2018 09/06/2018 09/07/2018 09/08/2018 09/09/2018 09/10/2018 09/11/2018 09/12/2018 09/13/2018 09/14/2018 09/15/2018 09/16/2018 09/17/2018 09/18/2018 09/19/2018 09/20/2018 09/21/2018 09/22/2018 09/23/2018 09/24/2018 09/25/2018 09/26/2018 09/27/2018 09/28/2018 09/29/2018 09/30/2018 10/01/2018 10/02/2018 10/03/2018 10/04/2018 10/05/2018 10/06/2018 10/07/2018 10/08/2018 10/09/2018 10/10/2018 10/11/2018 10/12/2018 10/13/2018 10/14/2018 10/15/2018 10/16/2018 10/17/2018 10/18/2018 10/19/2018 10/20/2018 10/21/2018 10/22/2018 10/23/2018 10/24/2018 10/25/2018 10/26/2018 10/27/2018 10/28/2018 10/29/2018 10/30/2018 10/31/2018 11/01/2018 11/02/2018 11/03/2018 11/04/2018 11/05/2018 11/06/2018 11/07/2018 11/08/2018 11/09/2018 11/10/2018 11/11/2018 11/12/2018 11/13/2018 11/14/2018 11/15/2018 11/16/2018 11/17/2018 11/18/2018 11/19/2018 11/20/2018 11/21/2018 11/22/2018 11/23/2018 11/24/2018 11/25/2018 11/26/2018 11/27/2018 11/28/2018 11/29/2018 11/30/2018 12/01/2018 12/02/2018 12/03/2018 12/04/2018 12/05/2018 12/06/2018 12/07/2018 12/08/2018 12/09/2018 12/10/2018 12/11/2018 12/12/2018 12/13/2018 12/14/2018 12/15/2018 12/16/2018 12/17/2018 12/18/2018 12/19/2018 12/20/2018 12/21/2018 12/22/2018 12/23/2018 12/24/2018 12/25/2018 12/26/2018 12/27/2018 12/28/2018 12/29/2018 12/30/2018 12/31/2018 01/01/2019 01/02/2019 01/03/2019 01/04/2019 01/05/2019 01/06/2019 01/07/2019 01/08/2019 01/09/2019 01/10/2019 01/11/2019 01/12/2019 01/13/2019 01/14/2019 01/15/2019 01/16/2019 01/17/2019 01/18/2019 01/19/2019 01/20/2019 01/21/2019 01/22/2019 01/23/2019 01/24/2019 01/25/2019 01/26/2019 01/27/2019 01/28/2019 01/29/2019 01/30/2019 01/31/2019 02/01/2019 02/02/2019 02/03/2019 02/04/2019 02/05/2019 02/06/2019 02/07/2019 02/08/2019 02/09/2019 02/10/2019 02/11/2019 02/12/2019 02/13/2019 02/14/2019 02/15/2019 02/16/2019 02/17/2019 02/18/2019 02/19/2019 02/20/2019 02/21/2019 02/22/2019 02/23/2019 02/24/2019 02/25/2019 02/26/2019 02/27/2019 02/28/2019 03/01/2019 03/02/2019 03/03/2019 03/04/2019 03/05/2019 03/06/2019 03/07/2019 03/08/2019 03/09/2019 03/10/2019 03/11/2019 03/12/2019 03/13/2019 03/14/2019 03/15/2019 03/16/2019 03/17/2019 03/18/2019 03/19/2019 03/20/2019 03/21/2019 03/22/2019 03/23/2019 03/24/2019 03/25/2019 03/26/2019 03/27/2019 03/28/2019 03/29/2019 03/30/2019 03/31/2019 04/01/2019 04/02/2019 04/03/2019 04/04/2019 04/05/2019 04/06/2019 04/07/2019 04/08/2019 04/09/2019 04/10/2019 04/11/2019 04/12/2019 04/13/2019 04/14/2019 04/15/2019 04/16/2019 04/17/2019 04/18/2019 04/19/2019 04/20/2019 04/21/2019 04/22/2019   Download As Excel


Quantity Caught
CaptainAnglerDayDivisionLake TroutYellow PerchLarge Mouth BassBlack CrappieSunfishSmall Mouth BassKokanee/Sockeye SalmonRainbow TroutBrown TroutBull TroutBrook Trout
Total Fish Caught 181539169281937751
mason orlowmason orlow
CaptainAnglerDayDivisionLake TroutYellow PerchLarge Mouth BassBlack CrappieSunfishSmall Mouth BassKokanee/Sockeye SalmonRainbow TroutBrown TroutBull TroutBrook Trout

mason
orlow
04/22/2018AOY-----------
04/23/2018AOY-----------
04/24/2018AOY-----------
04/25/2018AOY-----------
04/26/2018AOY-----------
04/27/2018AOY-----------
04/28/2018AOY-----------
04/29/2018AOY-----------
04/30/2018AOY-----------
05/01/2018AOY-2---------
05/02/2018AOY-----------
05/03/2018AOY-----------
05/04/2018AOY-----------
05/05/2018AOY-----------
05/06/2018AOY-----------
05/07/2018AOY-----------
05/08/2018AOY-----------
05/09/2018AOY-----------
05/10/2018AOY-----------
05/11/2018AOY-----------
05/12/2018AOY-----------
05/13/2018AOY-----------
05/14/2018AOY-----------
05/15/2018AOY-----------
05/16/2018AOY-----------
05/17/2018AOY-----------
05/18/2018AOY-----------
05/19/2018AOY--314------
05/20/2018AOY-----------
05/21/2018AOY--3--------
05/22/2018AOY-----------
05/23/2018AOY-----------
05/24/2018AOY-----------
05/25/2018AOY-----------
05/26/2018AOY-----------
05/27/2018AOY-----------
05/28/2018AOY-----------
05/29/2018AOY-----------
05/30/2018AOY-2---------
05/31/2018AOY-2-1-------
06/01/2018AOY-----------
06/02/2018AOY-----------
06/03/2018AOY-----------
06/04/2018AOY-----------
06/05/2018AOY-----------
06/06/2018AOY-----------
06/07/2018AOY-----------
06/08/2018AOY-----------
06/09/2018AOY-----------
06/10/2018AOY-----------
06/11/2018AOY-----------
06/12/2018AOY-----------
06/13/2018AOY-----------
06/14/2018AOY-----------
06/15/2018AOY-----------
06/16/2018AOY-----------
06/17/2018AOY-----------
06/18/2018AOY-----------
06/19/2018AOY-----1-----
06/20/2018AOY-----------
06/21/2018AOY1-----3----
06/22/2018AOY-----------
06/23/2018AOY-----------
06/24/2018AOY-----------
06/25/2018AOY-----------
06/26/2018AOY-----------
06/27/2018AOY-----------
06/28/2018AOY-----------
06/29/2018AOY-----------
06/30/2018AOY-----------
07/01/2018AOY-----------
07/02/2018AOY-----------
07/03/2018AOY-----------
07/04/2018AOY-----------
07/05/2018AOY-----------
07/06/2018AOY-----------
07/07/2018AOY-----------
07/08/2018AOY-----------
07/09/2018AOY-----------
07/10/2018AOY-----------
07/11/2018AOY-----------
07/12/2018AOY-----------
07/13/2018AOY-----------
07/14/2018AOY-----------
07/15/2018AOY-----------
07/16/2018AOY-----------
07/17/2018AOY-----------
07/18/2018AOY-----------
07/19/2018AOY-----------
07/20/2018AOY-----------
07/21/2018AOY-----------
07/22/2018AOY-----------
07/23/2018AOY-----------
07/24/2018AOY-----------
07/25/2018AOY-----------
07/26/2018AOY-----------
07/27/2018AOY-----------
07/28/2018AOY-----------
07/29/2018AOY-----------
07/30/2018AOY-----------
07/31/2018AOY-----------
08/01/2018AOY-----------
08/02/2018AOY-----------
08/03/2018AOY-----------
08/04/2018AOY-----------
08/05/2018AOY-----------
08/06/2018AOY-----------
08/07/2018AOY-----------
08/08/2018AOY-----------
08/09/2018AOY-----------
08/10/2018AOY-----------
08/11/2018AOY-----------
08/12/2018AOY-----------
08/13/2018AOY-----------
08/14/2018AOY-----------
08/15/2018AOY-----------
08/16/2018AOY-----------
08/17/2018AOY-----------
08/18/2018AOY-----------
08/19/2018AOY-----------
08/20/2018AOY-----------
08/21/2018AOY-----------
08/22/2018AOY-----------
08/23/2018AOY-----------
08/24/2018AOY-----------
08/25/2018AOY-----------
08/26/2018AOY-----------
08/27/2018AOY-----------
08/28/2018AOY-----------
08/29/2018AOY-----------
08/30/2018AOY-----------
08/31/2018AOY-----------
09/01/2018AOY-----------
09/02/2018AOY-----------
09/03/2018AOY-----------
09/04/2018AOY-----------
09/05/2018AOY-------1---
09/06/2018AOY-----------
09/07/2018AOY-----------
09/08/2018AOY-----------
09/09/2018AOY-----------
09/10/2018AOY-------1---
09/11/2018AOY-----------
09/12/2018AOY-----------
09/13/2018AOY-----------
09/14/2018AOY------21---
09/15/2018AOY-----------
09/16/2018AOY-----------
09/17/2018AOY-------2---
09/18/2018AOY------1----
09/19/2018AOY-----------
09/20/2018AOY-----------
09/21/2018AOY-----------
09/22/2018AOY-----------
09/23/2018AOY-----------
09/24/2018AOY-----------
09/25/2018AOY-----------
09/26/2018AOY-----------
09/27/2018AOY-----------
09/28/2018AOY-----------
09/29/2018AOY------2----
09/30/2018AOY-----------
10/01/2018AOY-----------
10/02/2018AOY-----------
10/03/2018AOY-----------
10/04/2018AOY-----------
10/05/2018AOY-----------
10/06/2018AOY-----------
10/07/2018AOY-----------
10/08/2018AOY-----------
10/09/2018AOY-----------
10/10/2018AOY-----------
10/11/2018AOY-----------
10/12/2018AOY-----------
10/13/2018AOY-----------
10/14/2018AOY-----------
10/15/2018AOY-----------
10/16/2018AOY-----------
10/17/2018AOY-----------
10/18/2018AOY-----------
10/19/2018AOY-----------
10/20/2018AOY-----------
10/21/2018AOY-----------
10/22/2018AOY--2--------
10/23/2018AOY---1-3-----
10/24/2018AOY-----------
10/25/2018AOY-----------
10/26/2018AOY-----------
10/27/2018AOY---2-------
10/28/2018AOY-----------
10/29/2018AOY-----------
10/30/2018AOY-----------
10/31/2018AOY-----------
11/01/2018AOY-----------
11/02/2018AOY-----------
11/03/2018AOY-----------
11/04/2018AOY-----------
11/05/2018AOY-----------
11/06/2018AOY-----------
11/07/2018AOY-----------
11/08/2018AOY-----------
11/09/2018AOY-----------
11/10/2018AOY-----------
11/11/2018AOY-----------
11/12/2018AOY-----------
11/13/2018AOY-----------
11/14/2018AOY-----------
11/15/2018AOY-----------
11/16/2018AOY-----------
11/17/2018AOY-----------
11/18/2018AOY-----------
11/19/2018AOY-----------
11/20/2018AOY-----------
11/21/2018AOY-----------
11/22/2018AOY-----------
11/23/2018AOY-----------
11/24/2018AOY-----------
11/25/2018AOY-----------
11/26/2018AOY1----------
11/27/2018AOY-----------
11/28/2018AOY-----------
11/29/2018AOY-----------
11/30/2018AOY-----------
12/01/2018AOY-----------
12/02/2018AOY-----------
12/03/2018AOY-----------
12/04/2018AOY-----------
12/05/2018AOY-----------
12/06/2018AOY-----------
12/07/2018AOY-----------
12/08/2018AOY-----------
12/09/2018AOY-----------
12/10/2018AOY-----------
12/11/2018AOY-----------
12/12/2018AOY-----------
12/13/2018AOY-----------
12/14/2018AOY-----------
12/15/2018AOY-----------
12/16/2018AOY-----------
12/17/2018AOY-----------
12/18/2018AOY-----------
12/19/2018AOY-----------
12/20/2018AOY-----------
12/21/2018AOY-----------
12/22/2018AOY-----------
12/23/2018AOY-----------
12/24/2018AOY-----------
12/25/2018AOY-----------
12/26/2018AOY-----------
12/27/2018AOY-----------
12/28/2018AOY-----------
12/29/2018AOY-----------
12/30/2018AOY-----------
12/31/2018AOY-----------
01/01/2019AOY-----------
01/02/2019AOY-----------
01/03/2019AOY-----------
01/04/2019AOY-----------
01/05/2019AOY-----------
01/06/2019AOY-----------
01/07/2019AOY-----------
01/08/2019AOY-----------
01/09/2019AOY-----------
01/10/2019AOY-----------
01/11/2019AOY-----------
01/12/2019AOY-----------
01/13/2019AOY-----------
01/14/2019AOY-----------
01/15/2019AOY-----------
01/16/2019AOY-----------
01/17/2019AOY-----------
01/18/2019AOY-----------
01/19/2019AOY-----------
01/20/2019AOY-----------
01/21/2019AOY-----------
01/22/2019AOY-----------
01/23/2019AOY-----------
01/24/2019AOY-----------
01/25/2019AOY-----------
01/26/2019AOY-----------
01/27/2019AOY-----------
01/28/2019AOY-----------
01/29/2019AOY-----------
01/30/2019AOY-----------
01/31/2019AOY-----------
02/01/2019AOY2----------
02/02/2019AOY-----------
02/03/2019AOY-----------
02/04/2019AOY-----------
02/05/2019AOY-----------
02/06/2019AOY-----------
02/07/2019AOY-----------
02/08/2019AOY-----------
02/09/2019AOY-----------
02/10/2019AOY-----------
02/11/2019AOY-----------
02/12/2019AOY-----------
02/13/2019AOY-----------
02/14/2019AOY-----------
02/15/2019AOY-----------
02/16/2019AOY-----------
02/17/2019AOY-----------
02/18/2019AOY-----------
02/19/2019AOY-----------
02/20/2019AOY-----------
02/21/2019AOY-----------
02/22/2019AOY-----------
02/23/2019AOY-----------
02/24/2019AOY-----------
02/25/2019AOY-----------
02/26/2019AOY-----------
02/27/2019AOY-----------
02/28/2019AOY-----------
03/01/2019AOY-----------
03/02/2019AOY-----------
03/03/2019AOY-----------
03/04/2019AOY-----------
03/05/2019AOY-----------
03/06/2019AOY-----------
03/07/2019AOY-----------
03/08/2019AOY-----------
03/09/2019AOY-----------
03/10/2019AOY-----------
03/11/2019AOY-----------
03/12/2019AOY-----------
03/13/2019AOY-----------
03/14/2019AOY-----------
03/15/2019AOY-----------
03/16/2019AOY-----------
03/17/2019AOY-----------
03/18/2019AOY-----------
03/19/2019AOY-----------
03/20/2019AOY-----------
03/21/2019AOY-----------
03/22/2019AOY-----------
03/23/2019AOY-----------
03/24/2019AOY-----------
03/25/2019AOY-----------
03/26/2019AOY-----------
03/27/2019AOY-----------
03/28/2019AOY-----------
03/29/2019AOY-----------
03/30/2019AOY-----------
03/31/2019AOY-----------
04/01/2019AOY-----------
04/02/2019AOY-----------
04/03/2019AOY-----------
04/04/2019AOY-----------
04/05/2019AOY-----------
04/06/2019AOY-----------
04/07/2019AOY-----------
04/08/2019AOY-----------
04/09/2019AOY-----------
04/10/2019AOY-----------
04/11/2019AOY-----------
04/12/2019AOY-----------
04/13/2019AOY-----------
04/14/2019AOY-----------
04/15/2019AOY-----------
04/16/2019AOY-----------
04/17/2019AOY-----------
04/18/2019AOY-----------
04/19/2019AOY-----------
04/20/2019AOY-----------
04/21/2019AOY-----------
04/22/2019AOY-----------
Ben FryBen Fry
CaptainAnglerDayDivisionLake TroutYellow PerchLarge Mouth BassBlack CrappieSunfishSmall Mouth BassKokanee/Sockeye SalmonRainbow TroutBrown TroutBull TroutBrook Trout

Ben
Fry
04/22/2018AOY1----------
04/23/2018AOY-----------
04/24/2018AOY-----------
04/25/2018AOY-----------
04/26/2018AOY-----------
04/27/2018AOY-----------
04/28/2018AOY-----------
04/29/2018AOY-----------
04/30/2018AOY-----------
05/01/2018AOY-----------
05/02/2018AOY-----------
05/03/2018AOY-----------
05/04/2018AOY-----------
05/05/2018AOY-----4-----
05/06/2018AOY-----------
05/07/2018AOY-----------
05/08/2018AOY-----------
05/09/2018AOY-----------
05/10/2018AOY-----------
05/11/2018AOY-----------
05/12/2018AOY-----------
05/13/2018AOY-----------
05/14/2018AOY-----------
05/15/2018AOY